Make your own free website on Tripod.com

/---------------------------------------------------------------------------/
/    The following is the authorīs own interpretation of the song, to be    /
/                     used for private use and studying                     /
/---------------------------------------------------------------------------/
SODOM - CONJURATION
From the Album PERSECUTION MANIA  

Transcribed by: Francisco Rocha


Main Riff

E----------------------------------------------
B----------------------------------------------
G----------------------------------------------
D----------------------------------------------
A-----------------5--5-------------------------
E--0--000000--0---3--3-------------------------


Refrain Riff
E------------------------------------------------------
B------------------------------------------------------
G------------------------------------------------------
D--5-5-5-5-5-5-5-5---3-3-3-3-3-3-3-3---2-2-2-2-2-2-----
A--3-3-3-3-3-3-3-3---1-1-1-1-1-1-1-1---0-0-0-0-0-0-----
E------------------------------------------------------
						 let ring

For Questions, Comments, Corrections; 
               please contact Francisco at f_rocha@hotmail.com
Home