Make your own free website on Tripod.com

/---------------------------------------------------------------------------/
/    The following is the authorīs own interpretation of the song, to be    /
/                     used for private use and studying                     /
/---------------------------------------------------------------------------/
THE STALLION
from Bathory's album Blood on ice
Transcribed by Francisco Rocha

Intro

E-----------------------------------------------
B-----------------------------------------------
G--2------2------2------2-------2---------------
D--2------2------2------2-------2---------------
A--0-0000-0--0000-0--000-0--000-0---------------
E-----------------------------------------------

Repeat 8 times

E----------------------------------------------
B----------------------------------------------
G--2--------------2----------------------------
D--2-----------5--2----------------------------
A--0-----------5--0----------------------------
E--------------3-------------------------------
   let ring       let ring and slide pick 

Fig.1
E------------------------------------------------------------------
B------------------------------------------------------------------
G--------10------5------7-----5---2--22------2--22-------4-5-2-----
D-----10-------5------7-----5-----2--22------2--22-------4-5-2-----
A---8--------3------5-----3-------0--00-0000-0--00--000--2-3-0-----
E------------------------------------------------------------------
   
  Play fig, 1 4 times and the last time play at the end

E---------------------------------------------
B---------------------------------------------
G--4-5-2-----2---2--2---2---2---2---2---------
D--4-5-2-----2---2--2---2---2---2---2---------
A--2-3-0---0-0-0-0--0-0-0-0-0-0-0-0-0---------
E---------------------------------------------

Fig. 2

Guitar 1

  Tendons and muscles of steel...

E--0-------------------------------------------
B--1-------------------------------------------
G--2-------------------------------------------
D--2-------------------------------------------
A--0-------------------------------------------
E----------------------------------------------
   Clean guitar

Fig. 1 is played between verses, I think there are other 2 guitars played but I haven't figured them out.

For now is all that I got if someone could help me get the singing part guitar I'll be very thankful.
Sorry for the errors, its my very first transcription.
For comments or critics contact me at:f_rocha@hotmail.com
Home